Sep16

Kategória: Kezdőknek

Lynyrd Skynyrd Sweet Home Alabama

2008. évben, 14:23-kor

Kid Rock All Summer Long száma eredetileg egy 1974-es slágerre épül, ami a Lynyrd Skynyrd southern rock banda második Second Helping című albumán hallgató. Szerintem mindenki ismeri, a videók után meg mindenki el fogja tudni játszani.


Sweet Home Alabama intro a dolphinstreet.com segítségével:


http://www.youtube.com/watch?v=ZVlyB5DYSpE


Sweet Home Alabama Tab


E||------------------------------|---------------------------------|
B||---------3-------------3------|---------3-----------------------|
G||-----------2-------------0----|---------0------------------2p-0-|
D||--0---0-------0---------------|---------0---------0h-2-0--------|
A||----------------3---3-------0-|--------------0h-2--------2------|
E||------------------------------|--3---3--------------------------|



------------------------------|---------------------------------|
---------3-------------3------|---------3-----------------------|
-----------2-------------0----|---------0---0-2p-0-0-4p-0-0-5b--|
--0---0-------0---------------|---------0-----------------------|
----------------3---3-------0-|---------------------------------|
------------------------------|--3---3--------------------------|

Eredeti Lynyrd Skynyrd szám:

http://www.youtube.com/watch?v=IwWUOmk7wO0

 

Kommentek

írta:

írta:

Szólj hozzá!

Név:

Email:

Web/URL:

Komment szövege:

Az alábbi két szót kérlek gépeld be, hogy kiderüljön, hogy nem vagy robot:


Utolsó posztok

Régebbi posztok