Nov9

Kategória: Kezdőknek

Coldplay - Viva La Vida

2008. évben, 14:43-kor

Slágerlistákat ostromolja egy szám, amiben egy Dr. House hasonmás énekel, ráadásul elég egyszerű lejátszani, pláne úgy, hogy James megmutatja, hogyan is kell:

http://www.youtube.com/watch?v=aCWZtIvFJao

Eredeti változat:

http://www.youtube.com/watch?v=dvgZkm1xWPE

Szólj hozzá!

 

Oct5

Kategória: Kezdőknek

Franz Ferdinand - Take Me Out

2008. évben, 13:33-kor

Andy videóiba belenézve találtam egy jó kis Franz Ferdinand Take Me Out oktató videót.

http://www.youtube.com/watch?v=Mjbkv7D_znM

Eredeti videó:

http://www.youtube.com/watch?v=x_9GR9kdZ3o

Szólj hozzá!

 

Oct5

Kategória: Haladóknak

The Killers - Mr Brightside

2008. évben, 13:24-kor

Elég trükkös kis riff van a Killers Mr. Brightside című számában, Andy segítségével mégis könnyen elsajátítható:

http://www.youtube.com/watch?v=LGeAzasZF44


A videóhoz egy kis tabulatúra:

Eb------------0-----------------0-----------------0-----------------0------|
B-------------16-----------------16----------------16----------------16---|
G-------18------18--------18-------18-------18-------18------18--------18-|
D-----15--15------------15--15-----------15---15-----------15---15--------|
A---16----------------15--------------------------------------------------|
E--------------------------------------14----------------14---------------|


Eredeti változat:

http://www.youtube.com/watch?v=XhMSKdCgVYQ

Szólj hozzá!

 

Sep16

Kategória: Kezdőknek

Lynyrd Skynyrd Sweet Home Alabama

2008. évben, 14:23-kor

Kid Rock All Summer Long száma eredetileg egy 1974-es slágerre épül, ami a Lynyrd Skynyrd southern rock banda második Second Helping című albumán hallgató. Szerintem mindenki ismeri, a videók után meg mindenki el fogja tudni játszani.


Sweet Home Alabama intro a dolphinstreet.com segítségével:


http://www.youtube.com/watch?v=ZVlyB5DYSpE


Sweet Home Alabama Tab


E||------------------------------|---------------------------------|
B||---------3-------------3------|---------3-----------------------|
G||-----------2-------------0----|---------0------------------2p-0-|
D||--0---0-------0---------------|---------0---------0h-2-0--------|
A||----------------3---3-------0-|--------------0h-2--------2------|
E||------------------------------|--3---3--------------------------|



------------------------------|---------------------------------|
---------3-------------3------|---------3-----------------------|
-----------2-------------0----|---------0---0-2p-0-0-4p-0-0-5b--|
--0---0-------0---------------|---------0-----------------------|
----------------3---3-------0-|---------------------------------|
------------------------------|--3---3--------------------------|

Eredeti Lynyrd Skynyrd szám:

http://www.youtube.com/watch?v=IwWUOmk7wO0

Szólj hozzá!

 

Sep16

Kategória: Kezdőknek

ACDC Black in Black

2008. évben, 13:43-kor

Az igazi rock szám. Gibson és Marshall, ACDC és a Black in Black.


JamPlay.com megmutatja, hogyan is kell játszani:

http://www.youtube.com/watch?v=2m50c1qKuAg

Eredeti:

http://www.youtube.com/watch?v=tXaZmY52gHM

Szólj hozzá!

 

Sep14

Kategória: Haladóknak

Kid Rock All Summer Long

2008. évben, 13:51-kor

Kid Rock jó arc, szereti a nagy csöcsöket a rock and rollt és végre már nem bohóckodik reppeléssel.

Az új slágere az All Summer Long, amit Siggi Mertens mutat meg:

http://www.youtube.com/watch?v=SfO4olX4v_c

Eredeti változat:

http://www.youtube.com/watch?v=uwIGZLjugKA

Szólj hozzá!

 

Feb17

Kategória: Haladóknak

Bullet For My Valentine - Tears Dont Fall

2008. évben, 22:59-kor

Még egy kis drop c-s metalcore leckét szeretnék megmutatni nektek, ezúttal a Bullet For My Valentine - Tears Dont Fall-t.

http://www.youtube.com/watch?v=pPYtBnkct-0

A sláger eredetiben:

http://www.youtube.com/watch?v=E5JKBMkiUco

Szólj hozzá!

 

Feb17

Kategória: Haladóknak

Killswitch Engage - My Curse

2008. évben, 22:06-kor

Bár egy korábbi posztban egy srác megmondta, hogy a hardcore, metalcore-t fél perc alatt meg lehet tanulni, meg milyen ostobaság három akkordot játszani, azért van akiknek ez is jól megy.

Ilyen például a Killswitch Engage tagjai, akik még oktató videót is készítettek a számukról.
(Ne felejtsétek a gitárt lehangolni drop c-re)

http://www.youtube.com/watch?v=laLK6cG7ewU

A sláger klipje:

http://www.youtube.com/watch?v=_1ADlw8IuQ4

Szólj hozzá!

 

Feb17

Kategória: Kezdőknek

Egy kis Rock and Roll lecke - Johnny B Goode

2008. évben, 21:54-kor

Egy klasszikus szám egy profi oktató tolmácsolásában:

http://www.youtube.com/watch?v=4Hl4ueIk0zQ

Chuck Berry annak idején így játszotta:

http://www.youtube.com/watch?v=R0YUA3yTUss

Szólj hozzá!

 

Jan23

Kategória: Kezdőknek

Bending avagy nyújtás

2008. évben, 19:40-kor

A gitározás egyik legfontosabb technikai eleme a nyújtás. Nélküle csupán csupán finomkodni lehet a gitáron.
Az alábbi oktató videóban Paul Gilbert ez megmutatja illetve ki is fejti:

http://www.youtube.com/watch?v=ZUSco_Q_NoI

Justin, aki a legkirályabb gitár oktató videó tanár a youtube-on szintén készített egy oktató videót a nyújtásról, akinek Paul Gilbert túl sok volt kezdőként neki javaslom az alábbi videót:

http://www.youtube.com/watch?v=Prhi5FgScEM

A videóhoz tartozó kottát illetve tabot innen tudjátok letölteni.

Szólj hozzá!

 

Utolsó posztok

Régebbi posztok